Zerstören tab

Back to the list of all Rammstein tabs

Main riff
D|-----------------------------------|
A|-----------------------------------|
F|*---------------------------------*|
C|*---------------------------------*|
G|-----------------------------------|
C|--4-1-1-0-1-1-0-1-0-1-1-1-0-0-1-1--|


First verse riff
D|-----------------------------------|
A|-----------------------------------|
F|*---------------------------------*|
C|*-4-1-----1-----1---1---1-----1-1-*|
G|--4-1-0-0-1-1-1-1-1-1-1-1-1-1-1-1--|
C|--4-1-0-0-1-1-1-1-1-1-1-1-1-1-1-1--|
pm      . .   . .   .   .   . .

Chorus
D|-------------------------------------------------------------------
A|-------------------------------------------------------------------
F|-------------------------------------------------------------------
C|-------------------------------------------------------------------
G|-------------------------------------------------------------------
C|--4-1-1-0-1-1-0-1-0-1-1-1-0-0-1-1-4-1-1-0-1-1-0-1-0-1-1-1-0-0-1-1--

D|-------------------------------------------------------------------
A|-------------------------------------------------------------------
F|-------------------------------------------------------------------
C|--2-2-2-2-2-2-2-2-2-2-2-2-2-2-2-2----------------------------------
G|--2-2-2-2-2-2-2-2-2-2-2-2-2-2-2-2----------------------------------
C|--2-2-2-2-2-2-2-2-2-2-2-2-2-2-2-2-4-1-1-0-1-1-0-1-0-1-1-1-0-0-1-1--

D|-------------------------------------------------------------------
A|-------------------------------------------------------------------
F|-------------------------------------------------------------------
C|-------------------------------------------------------------------
G|-------------------------------------------------------------------
C|--4-1-1-0-1-1-0-1-0-1-1-1-0-0-1-1-4-1-1-0-1-1-0-1-0-1-1-1-0-0-1-1--

D|-------------------------------------------------------------------|
A|-------------------------------------------------------------------|
F|-------------------------------------------------------------------|
C|--2-2-2-2-2-2-2-2-2-2-2-2-2-2-2-2-6-6-6-6-6-6-6-6-6-6-6-6-6-6-6-6--|
G|--2-2-2-2-2-2-2-2-2-2-2-2-2-2-2-2-6-6-6-6-6-6-6-6-6-6-6-6-6-6-6-6--|
C|--2-2-2-2-2-2-2-2-2-2-2-2-2-2-2-2-6-6-6-6-6-6-6-6-6-6-6-6-6-6-6-6--|


Heavy riff after the chorus
D|-----------------------------------|
A|-----------------------------------|
F|*---------------------------------*|
C|*---------------------------------*|
G|-----------------------------------|
C|--4-1-1-0-1-1-0-1-0-1-1-1-0-0-1-1--|

This part is doubled both as open strings and as pm's.

2.00
D|------------------------------------------------------------------|
A|------------------------------------------------------------------|
F|------------------------------------------------------------------|
C|--1---1-----------1---1-----------1---1---------------------------|
G|--1---1-----------1---1-----------1---1---------------------------|
C|--1---1---11b12~~-1---1---11b12~~-1---1---11b12~~-11b12~~-11b12~~-|

Solo
With Whammy pedal (2 octaves

                                  Lower the whammy slowly
D|-11--------11-----11-11-----11----11----11----11----11-------11----11-----
A|--------11----11---------11----11----11----11----11----11-11----11----11--
F|--------------------------------------------------------------------------
C|--------------------------------------------------------------------------
G|--------------------------------------------------------------------------
C|--------------------------------------------------------------------------

    Heel-down                                    Toe-down
D|------------------------------------------------------------------------
A|--------11-------11-------11-------11-------11-14-11-------11-----------
F|--13b15----13b15----13b15----13b15----13b15----------13b14----13b14\\--
C|------------------------------------------------------------------------
G|------------------------------------------------------------------------
C|------------------------------------------------------------------------

    Heel-down                                    Toe-down
D|------------------------------------------------------------------------
A|--------11-------11-------11-------11-------11-14-11-------11-----------
F|--13b15----13b15----13b15----13b15----13b15----------13b14----13b14-11--
C|------------------------------------------------------------------------
G|------------------------------------------------------------------------
C|------------------------------------------------------------------------

    Heel-down                                    Toe-down
D|------------------------------------------------------------------------
A|--------11-------11-------11-------11-------11-14-11-------11-----------
F|--13b15----13b15----13b15----13b15----13b15----------13b14----13b14\\--
C|------------------------------------------------------------------------
G|------------------------------------------------------------------------
C|------------------------------------------------------------------------

    Toe-down                              Vibrate   Release slowly
D|------------------------------------------------------------------------|
A|--14-11-11-14-11-11-14-11-14-14b16-14b16-14b16~~~~~\\\\\------------|
F|------------------------------------------------------------------------|
C|------------------------------------------------------------------------|
G|------------------------------------------------------------------------|
C|------------------------------------------------------------------------|


2.54
D|-----------------------------------------|
A|-----------------------------------------|
F|-----------------------------------------|
C|--11---9---14---9---11---6------6-6-6-6--|
G|--11---9---14---9---11---6------6-6-6-6--|
C|--11---9---14---9---11---6------6-6-6-6--|
 
  • דשא סינטטי

    פרקטים מכל הסוגים והמינים, טפטים, שטיחים ועוד..