Stirb nicht vor Mir tab

Back to the list of all Rammstein tabs

The lead guitar varies between:
D|------7-------7-------7--------7----
A|----9---9---9---9---9----9---9---9--
F|--9-------9-------8--------8--------
C|------------------------------------
G|------------------------------------
C|------------------------------------

D|------7-------7--------0--------0----|
A|----9---9---9---9--------------------|
F|--9-------9----------8---8----8------|
C|------------------11-------11-----9--|
G|-------------------------------------|
C|-------------------------------------|

and:
D|------7-------7-------7--------7----
A|----9---9---9---9---9----9---9---9--
F|--9-------9-------8--------8--------
C|------------------------------------
G|------------------------------------
C|------------------------------------

D|------7-------7--------0--------0--------|
A|----9---9---9---9------------------------|
F|--9-------9----------8---8----8---8-8b9--|
C|------------------11-------11------------|
G|-----------------------------------------|
C|-----------------------------------------|

The whole song is built up by the same acoustic patterns,
and an electric guitar with a tremolo effect can be heard
in the background (especially at 2.48)


Chorus:
B5       F#5      G5       E5

At 2.17, 3.29 and 3.51 the chorus ends with an A5


Verse:
G5  F#5  B5       G5  F#5  B5          x3

E5  D5   B5       G5       F#5


Middle part from 2.21:
D5       F#5     G5        E5 x2

G5       F#5

G5       B5      G5        B5     \
                                   }(electric guitar only)
G5       B5      G5        F#5    /


Strum pattern for acoustic parts:

D=Downstroke U=Upstroke

D|--------------------------------------------------
A|--D-----D-----D-----D--U-----U--D-----D-----D-----
F|--------------------------------------------------
C|--x-----x-----x-----x--x-----x--x-----x-----x-----
G|--x-----x-----x-----x--x-----x--x-----x-----x-----
C|--x-----x-----x-----x--x-----x--x-----x-----x-----

Chords:
   D5 E5 F#5 G5 A5 B5
D|--------------------
A|--------------------
F|--------------------
C|-2--4--6---7--9--11-
G|-2--4--6---7--9--11-
C|-2--4--6---7--9--11-  
  • Marr_Alrun

    Ah, doubt that there are any versions of their songs for key-board or piano… But Tabs can help too, thank you for posting!

  • Wes

    any bass tabs?

  • SPEILUHR

    hey I love this song