Morgenstern tab

Back to the list of all Rammstein tabs

Main riff
D|-------------------------------------------------------------------|
A|-------------------------------------------------------------------|
F|*-----------------------------------------------------------------*|
C|*-----------------------------------------------------------------*|
G|--3-0-----------------3-0-3-0-----3-0-----------------3-0-3-0-0-0--|
C|--3-0-----------------3-0-3-0-----3-0-----------------3-0-3-0-0-0--|
pm  . .                 . . . .     . .                 . . . . . .


Pre-chorus 1
1st guitar
D|---------------------------------------------------
A|---------------------------------------------------
F|---6--6--6--6--6--6--6--6--6--6--6--6--6--6--6--6--
C|---x--x--x--x--x--x--x--x--x--x--x--x--x--x--x--x--
G|---4--4--4--4--4--4--4--4--4--4--4--4--4--4--4--4--
C|---------------------------------------------------

D|---------------------------------------------------|
A|---------------------------------------------------|
F|--10-10-10-10-10-10-10-10-10-10-10-10-10-10-10-10--|
C|---x--x--x--x--x--x--x--x--x--x--x--x--x--x--x--x--|
G|---8--8--8--8--8--8--8--8--8--8--8--8--8--8--8--8--|
C|---------------------------------------------------|

2nd guitar
D|---------------------------------------------------
A|---------------------------------------------------
F|---------------------------------------------------
C|---------------------------------------------------
G|---4--4--4--4--4--4--4--4--4--4--4--4--4--4--4--4--
C|---------------------------------------------------

D|---------------------------------------------------|
A|---------------------------------------------------|
F|---------------------------------------------------|
C|---------------------------------------------------|
G|---------------------------------------------------|
C|---3--3--3--3--3--3--3--3--3--3--3--3--3--3--3--3--|


1st Chorus
D|---------------------------------------------------
A|---------------------------------------------------
F|*--------------------------------------------------
C|*-12-12-12-12-12-12-12-12-11-11-11-11-11-11-11-11--
G|--12-12-12-12-12-12-12-12-11-11-11-11-11-11-11-11--
C|--12-12-12-12-12-12-12-12-11-11-11-11-11-11-11-11--

D|--------------------------------------------------
A|--------------------------------------------------
F|--------------------------------------------------
C|--7--7--7--7--7--7--7--7--7--7--7--7--7--7--7--7--
G|--7--7--7--7--7--7--7--7--7--7--7--7--7--7--7--7--
C|--7--7--7--7--7--7--7--7--7--7--7--7--7--7--7--7--

D|--------------------------------------------------
A|--------------------------------------------------
F|--------------------------------------------------
C|--8--8--8--8--8--8--8--8--8--8--8--8--8--8--8--8--
G|--8--8--8--8--8--8--8--8--8--8--8--8--8--8--8--8--
C|--8--8--8--8--8--8--8--8--8--8--8--8--8--8--8--8--

D|--------------------------------------------------|
A|--------------------------------------------------|
F|-------------------------------------------------*|
C|--5--5--5--5--5--5--5--5--5--5--5--5--5--5--5--5-*|x2
G|--5--5--5--5--5--5--5--5--5--5--5--5--5--5--5--5--|
C|--5--5--5--5--5--5--5--5--5--5--5--5--5--5--5--5--|

D|---------------------------------------------------|
A|---------------------------------------------------|
F|---------------------------------------------------|
C|--8--8--8--8--8--8--8--8--10-10-10-10-10-10-10-10--|
G|--8--8--8--8--8--8--8--8--10-10-10-10-10-10-10-10--|
C|--8--8--8--8--8--8--8--8--10-10-10-10-10-10-10-10--|


2nd Chorus is the same as chorus 1, just repeated 2 times.


Heavy riff (02.26)
D|-------------------------------------------------------------------|
A|-------------------------------------------------------------------|
F|*-----------------------------------------------------------------*|
C|*-3p0-----------------3p0-3p0-----3p0-----------------3p0-3p0-----*|x4
G|--3p0-0-0-0-0-0-0-0-0-3p0-3p0-0-0-3p0-0-0-0-0-0-0-0-0-3p0-3p0-0-0--|
C|--3p0-0-0-0-0-0-0-0-0-3p0-3p0-0-0-3p0-0-0-0-0-0-0-0-0-3p0-3p0-0-0--|
pm      . . . . . . . .         . .     . . . . . . . .         . .


Riff entering in the choir part
D|---------------------------------------------------|
A|---------------------------------------------------|
F|---------------------------------------------------|
C|--8--8--8--8--8--8--8--8--10-10-10-10-10-10-10-10--|
G|--8--8--8--8--8--8--8--8--10-10-10-10-10-10-10-10--|
C|--8--8--8--8--8--8--8--8--10-10-10-10-10-10-10-10--|


The last chorus is the same as the second chorus.


End
D|---------------------------------------|
A|---------------------------------------|
F|---------------------------------------|
C|---------------------------------------|
G|--3-0-----------------3-0-3-0-0-0-3-0--|
C|--3-0-----------------3-0-3-0-0-0-3-0--|
pm  . .                 . . . . . . . .