Ich Will tab

Back to the list of all Rammstein tabs

Main Riff

E-------------------------------------------------------------------
B-------------------------------------------------------------------
G-------------------------------------------------------------------
D-0-0-0-0-0--0-0-0-0-0-0-0-0--0-0-0-0-0--0-0-0-0-0-0-0-0------------
A-0-0-0-0-0--0-0-0-0-0-0-0-0--0-0-0-0-0--0-0-0-0-0-0-0-0------------
D-0-0-0-0-0--0-0-0-0-0-0-0-0--0-0-0-0-0--0-0-0-0-0-0-0-0------------

E-------------------------------------------------------------------
B-------------------------------------------------------------------
G-------------------------------------------------------------------
D-0-0-0-0-0--0-0-0-0-0-0-0-0--0-0-0-0-0--5-5-5-3-3-3-1-1------------
A-0-0-0-0-0--0-0-0-0-0-0-0-0--0-0-0-0-0--5-5-5-3-3-3-1-1------------
D-0-0-0-0-0--0-0-0-0-0-0-0-0--0-0-0-0-0--5-5-5-3-3-3-1-1------------


Another Riff

E-----------
B-----------
G-----------
D-0-0-0-0-0-
A-0-0-0-0-0-
D-0-0-0-0-0-


Chorus (played this riff 4 times during chorus)

E--------------------------
B--------------------------
G--------------------------
D-0----8-5-7--0----8-10-7--
A-0----8-5-7--0----8-10-7--
D-0----8-5-7--0----8-10-7--


guitar with phase shifter

E-------------------------------------------------------------------
B-------------------------------------------------------------------
G-------------------------------------------------------------------
D-----0-------0-------0-------0-------8-------8-------8-------------
A---5---5---5---0---5---5---5---0---8---8---8---8---8---8---8---7---
D-0-------0-------0-------0-------8-------8-------8-------8---7-----

E-------------------------------------------------------------------
B-------------------------------------------------------------------
G-------------------------------------------------------------------
D-----5-------5-------5-------5-------7-------7-------7-------7-----
A---5---5---5---5---5---5---5---5---7---7---7---7---7---7---7---7---
D-5-------5-------5-------5-------7-------7-------7-------7-------7-