Feuer Frei! tab

Back to the list of all Rammstein tabs

Drop D Tuning

After the keyboard part this chord is hit once and sustained

D--8--
A--8--
D--8--

Main Riff

E-------------------------------
B-------------------------------
G-------------------------------
D--5--6--5--6--5--6--5--6--6/8--
A--5--6--5--6--5--6--5--6--6/8--
D--5--6--5--6--5--6--5--6--6/8--


Fill

E-------------
B-------------
G-------------
D--12--11--8--
A--12--11--8--
D--12--11--8--