Zwitter tab

Back to the list of all Rammstein tabs

P=Pull off

Opening:
E|---------------------------------------------------------------------------------------------------|
B|---------------------------------------------------------------------------------------------------|
G|---------------------------------------------------------------------------------------------------|
D|---------------------------------------------------------------------------------------------------|
A|---------------------------------------------------------------------------------------------------|
D|-0-0-0-0-0-0-5-3-0-0-0-0-1-1-1-1-0-0-0-0-0-0-5-3-0-0-0-0-1-1-1-1-0-0-0-0-0-0-5-3-0-0-0-0-1-1-1-1---|

Next heavy riff:
E|-----------------------------------------------------------------------------|
B|-----------------------------------------------------------------------------|
G|-----------------------------------------------------------------------------|
D|-----------5P3---------1-----1---------5P3---------1-----1-------------------|
A|---0-0-0-0-5P3-0-0-0-0-1-1-1-1-0-0-0-0-5P3-0-0-0-0-1-1-1-1-------------------|
D|---0-0-0-0-5P3-0-0-0-0-1-1-1-1-0-0-0-0-5P3-0-0-0-0-1-1-1-1-------------------|
p.m. . . . .     . . . .   . .   . . . .     . . . .   . .


Eins für mich...

E|-----------------------------------------------------------------|
B|-----------------------------------------------------------------|
G|-8-8-8-8-8-8-8-8-5-5-5-5-5-5-5-5-3-3-3-3-3-3-3-3-3-3-3-3---------|
D|-8-8-8-8-8-8-8-8-5-5-5-5-5-5-5-5-3-3-3-3-3-3-3-3-3-3-3-3-----1-3-|
A|-6-6-6-6-6-6-6-6-3-3-3-3-3-3-3-3-1-1-1-1-1-1-1-1-1-1-1-1-1-3-----|
D|-----------------------------------------------------------------|

E-----------------------------------------------------------------|
B-----------------------------------------------------------------|
G-8-8-8-8-8-8-8-8-5-5-5-5-5-5-5-5---------------------------------|
D-8-8-8-8-8-8-8-8-5-5-5-5-5-5-5-5-5-5-5-5-5-5-5-5-5-5-5-5-5-5-5-5-|
A-6-6-6-6-6-6-6-6-3-3-3-3-3-3-3-3-5-5-5-5-5-5-5-5-5-5-5-5-5-5-5-5-|
D---------------------------------5-5-5-5-5-5-5-5-5-5-5-5-5-5-5-5-|
  • no-1-ramm-fan

    best song…..EVER !