Wo bist du? tab

Back to the list of all Rammstein tabs

Main riff
D|------------------------------------------------------------------
A|------------------------------------------------------------------
F|*-----------------------------------------------------------------
C|*-7-7-7-7-7-7-7-7-7-7-7-7-7-7-7-7-3-3-3-3-3-3-3-3-3-3-3-3-3-3-3-3-
G|--7-7-7-7-7-7-7-7-7-7-7-7-7-7-7-7-3-3-3-3-3-3-3-3-3-3-3-3-3-3-3-3-
C|--7-7-7-7-7-7-7-7-7-7-7-7-7-7-7-7-3-3-3-3-3-3-3-3-3-3-3-3-3-3-3-3-

D|----------------------------------------------------------------------------------|
A|----------------------------------------------------------------------------------|
F|---------------------------------------------------------------------------------*| (x2, x2, until the end)
C|-10-10-10-10-10-10-10-10-10-10-10-10-10-10-10-10-0-0-0-0-0-0-0-0-0-0-0-0-0-0-0-0-*|
G|-10-10-10-10-10-10-10-10-10-10-10-10-10-10-10-10-0-0-0-0-0-0-0-0-0-0-0-0-0-0-0-0--|
C|-10-10-10-10-10-10-10-10-10-10-10-10-10-10-10-10-0-0-0-0-0-0-0-0-0-0-0-0-0-0-0-0--|

[email protected] 0.35, 1.29, 1.54, 2.49, 3.13, 3.37
D|---------|
A|---------|
F|--10--9--|
C|--10--9--|
G|---8--7--|
C|---------|