Spring tab

Back to the list of all Rammstein tabs

Intro
C|--�--
G|--�--
C|--�--

D|-------------------------------------------------------------------
A|-------------------------------------------------------------------
F|*------------------------------------------------------------------
C|*-0-------0-----0-0-------1-----0-0-------0-----0-0-------1-----0--
G|--0-------0-----0-0-------1-----0-0-------0-----0-0-------1-----0--
C|--0-0-0-0-0-0-0-0-0-0-0-0-1-0-0-0-0-0-0-0-0-0-0-0-0-0-0-0-1-0-0-0--
pm    . . .   . .     . . .   . .     . . .   . .     . . .   . .    

Gtr 1:
D|---------------------------------------------------------------------|
A|---------------------------------------------------------------------|
F|--5-5-5-5-5-5-5-5-5-4-4-4-4-4-4-4------------------------------------|
C|--x-x-x-x-x-x-x-x-x-x-x-x-x-x-x-x-0-------0-----0-0-------1-----0-0--|
G|--3-3-3-3-3-3-3-3-3-2-2-2-2-2-2-2-0-------0-----0-0-------1-----0-0--|
C|----------------------------------0-0-0-0-0-0-0-0-0-0-0-0-1-0-0-0-0--|
pm                                    . . .   . .     . . .   . .

Gtr 2:
D|---------------------------------------------------------------------|
A|---------------------------------------------------------------------|
F|--5-5-5-5-5-5-5-5-5-7-7-7-7-7-7-7------------------------------------|
C|--x-x-x-x-x-x-x-x-x-x-x-x-x-x-x-x-0-------0-----0-0-------1-----0-0--|
G|--3-3-3-3-3-3-3-3-3-5-5-5-5-5-5-5-0-------0-----0-0-------1-----0-0--|
C|----------------------------------0-0-0-0-0-0-0-0-0-0-0-0-1-0-0-0-0--|
pm                                    . . .   . .     . . .   . .


1st verse 
[ Clean guitar ]
D|-------------~~------0--------|
A|-------------~~---------------|
F|*---5-----7--~~----5---5---7-*|
C|*-7-----7----~~--7-------7---*|
G|-------------~~---------------|
C|-------------~~---------------|


Chorus
D|-------------------------------------------------------------------
A|-------------------------------------------------------------------
F|*------------------------------------------------------------------
C|*-0-------0-----0-0-------1-----0-0-------0-----0-0-------1-----0--
G|--0-------0-----0-0-------1-----0-0-------0-----0-0-------1-----0--
C|--0-0-0-0-0-0-0-0-0-0-0-0-1-0-0-0-0-0-0-0-0-0-0-0-0-0-0-0-1-0-0-0--
pm    . . .   . .     . . .   . .     . . .   . .     . . .   . .    

D|---------------------------------------------------
A|---------------------------------------------------
F|---------------------------------------------------
C|--10-10-10-10-10-10-10-10-10-10-10-10-10-10-10-10--
G|--10-10-10-10-10-10-10-10-10-10-10-10-10-10-10-10--
C|--10-10-10-10-10-10-10-10-10-10-10-10-10-10-10-10--

D|-----------------------------------|
A|-----------------------------------|
F|----------------------------------*|
C|--0-------0-----0-0-------1-----0-*|x2
G|--0-------0-----0-0-------1-----0--|
C|--0-0-0-0-0-0-0-0-0-0-0-0-1-0-0-0--|
pm    . . .   . .     . . .   . .


2nd verse 
D|-------------------------------------------------------------------|
A|-------------------------------------------------------------------|
F|*-----------------------------------------------------------------*|
C|*-----------------------------------------------------------------*|x3
G|-------------------------------------------------------------------|
C|--0-0-0-0-0-0-0-0-0-0-0-0-1-0-0-0-0-0-0-0-0-0-0-0-0-0-0-0-1-0-0-0--|
pm    . . .   . .     . . .   . .     . . .   . .     . . .   . .    

D|-------------------------------------------------------------------|
A|-------------------------------------------------------------------|
F|-------------------------------------------------------------------|
C|-------------------------------------------------------------------|
G|--3-3-3-3-3-3-3-3-3-3-3-3-3-3-3------------------------------------|
C|--------------------------------0-0-0-0-0-0-0-0-0-0-0-0-0-1-0-0-0--|
pm    . . .   . .     . . .   . .     . . .   . .     . . .   . .    


Bridge at 3.23
D|-------------------------------------------------------------------
A|-------------------------------------------------------------------
F|-------------------------------------------------------------------
C|--8-8-8-8-8-8-8-8-7-7-7-7-7-7-7-7-5-5-5-5-5-5-5-5-7-7-7-7-7-7-7-7--
G|--8-8-8-8-8-8-8-8-7-7-7-7-7-7-7-7-5-5-5-5-5-5-5-5-7-7-7-7-7-7-7-7--
C|--8-8-8-8-8-8-8-8-7-7-7-7-7-7-7-7-5-5-5-5-5-5-5-5-7-7-7-7-7-7-7-7--

D|-------------------------------------------------------------------|
A|-------------------------------------------------------------------|
F|-------------------------------------------------------------------|
C|--10-10-10-10-10-10-10-10-10-10-10-10-10-10-10-10-0----------------|
G|--10-10-10-10-10-10-10-10-10-10-10-10-10-10-10-10-0----------------|
C|--10-10-10-10-10-10-10-10-10-10-10-10-10-10-10-10-0----------------|


Solo
D|-------------~~------0--------|
A|-------------~~---------------|
F|*---5-----7--~~----5---5---7-*|
C|*-7-----7----~~--7-------7---*|x2
G|-------------~~---------------|
C|-------------~~---------------|

Rhythm behind solo and end riff
D|-----------------------------------|
A|-----------------------------------|
F|*---------------------------------*|
C|*-0-------0-----0-0-------1-----0-*|x4
G|--0-------0-----0-0-------1-----0--|
C|--0-0-0-0-0-0-0-0-0-0-0-0-1-0-0-0--|
pm    . . .   . .     . . .   . .  
  • cesar

    the page is very good and the tabs are very complet