Sonne tab

Back to the list of all Rammstein tabs

Part 1
E-------------------------
B-------------------------
G-------------------------
D-0-6-0-6-5-0---0-6-0-6-5-
A-0-6-0-6-5-0---0-6-0-6-5-
E-0-6-0-6-5-0---0-6-0-6-5-

Eins
E----------------------------
B----------------------------
G-4-4-4--9-9-9--7-7-7--5-5-5-
D-4-4-4--9-9-9--7-7-7--5-5-5-
A-2-2-2--7-7-7--5-5-5--3-3-3-
E----------------------------

Zwei
E----------------------------
B----------------------------
G-4-4-4--9-9-9--7-7-7--5-5-5-
D-4-4-4--9-9-9--7-7-7--5-5-5-
A-2-2-2--7-7-7--5-5-5--3-3-3-
E----------------------------

Drei
E----------------------------
B----------------------------
G-9-9-9----------------------
D-9-9-9--9-9-9--5-5-5--4-4-4-
A-7-7-7--9-9-9--5-5-5--4-4-4-
E--------9-9-9--5-5-5--4-4-4-

Vier
E----------------------------
B----------------------------
G-9-9-9----------------------
D-9-9-9--9-9-9--5-5-5--4-4-4-
A-7-7-7--9-9-9--5-5-5--4-4-4-
E--------9-9-9--5-5-5--4-4-4-

Keyboard (Sounds like a chorus singing)

Eins
E----------------------
B----------------------
G----------------------
D----------------------
A------10-10--9-9--7-7-
E-9-9------------------

Zwei
E-------------------------
B-------------------------
G-------------------------
D-------------------------
A-------12-12--10-10--9-9-
E-9-9---------------------

Drei
E---------------------
B---------------------
G---------------------
D------12-------------
A-14---------14----12-
E---------------------

Vier
E--------------------------
B--------------------------
G--------------------------
D--------------------------
A-14-14--9-9--10-10--12-12-
E--------------------------

Fünf (Woman Singing) Also the ending of the song
2x
E------------------------------------------
B----12-14-15--19--12-------12-14-15-17-14-
G-11---------------------11----------------
D------------------------------------------
A------------------------------------------
E------------------------------------------

2x
E-------------------------------
B----------------14/15-15-15/14-
G-11~--12~-11~------------------
D-------------------------------
A-------------------------------
E-------------------------------

  • Talon

    This is WRONG. The song is a dropped D-tuning and one finger chords.

  • Jon

    Great tab – but there is one thing. It's in drop-D not Standard tuning 🙂