Sehnsucht tab

Back to the list of all Rammstein tabs

Standard Tuning
|-e-|
|-B-|
|-G-|
|-D-|
|-A-|
|-E-|

Main Riff:

|----------------------------------------|
|----------------------------------------|
|-------9-8---10-8---12-----9/10-X-X-9-7-|
|-------9-8---10-8---12-----9/10-X-X-9-7-|
|-------7-6----8-7---10-----7/8--X-X-7-5-|
|-0-0-0-----0------0----0-0--------------|
  pm...]    pm     pm   pm.]


Sehnsucht
|-------------------------------|
|-------------------------------|
|-9-----9-----9---9-----9-------|
|-9-----9-----9---9-----9-------|
|-7-----7-----7---7-----7-5-4-3-|
|---0-0---0-0---0---0-0---3-2-1-|
    pm.]  pm.]  pm  pm.]  pm...]

Fill
|---------------------------------------|
|---------------------------------------|
|-9-------5--------7--------------------|
|-9-------5--------7----------7---------|
|-7-------3--------5----------7---------|
|-----------------------------5---------|

Second Chorus
|------------------------------------------------------|
|------------------------------------------------------|
|---------------------------------5---5-4-2------------|
|-2---------------2---------------5---5-4-2------------|
|-2------5-5-4-3--2------5-5-4-3--3---3-2-0----5-5-4-3-|
|-0------3-3-2-1--0------3-3-2-1---------------3-3-2-1-|
         pm.....]        pm.....]              pm.....]