Reise Reise tab

Back to the list of all Rammstein tabs

Intro 
D|---------------------------------|
A|---------------------------------|
F|--------------------------6---6--|
C|--1---4---8---6---1---1---6---6--|
G|--1---4---8---6---1---1---4---4--|
C|--1---4---8---6---1---1----------|


D|---------------------------------|
A|---------------------------------|
F|*-------------------------------*|
C|*-1-0-1-----1-0-1-1-0-1---0-1-0-*|x4
G|--1-0-1-----1-0-1-1-0-1---0-1-0--|
C|--1-0-1-----1-0-1-1-0-1---0-1-0--|


1st chorus
D|---------------------------------|
A|---------------------------------|
F|*-------------------------6---6-*|
C|*-1---4---8---6---1---1---6---6-*|x2
G|--1---4---8---6---1---1---4---4--|
C|--1---4---8---6---1---1----------|


D|---------------------------------|
A|---------------------------------|
F|*-------------------------------*|
C|*-1-0-1-----1-0-1-1-0-1---0-1-0-*|x2
G|--1-0-1-----1-0-1-1-0-1---0-1-0--|
C|--1-0-1-----1-0-1-1-0-1---0-1-0--|


2nd chorus
D|---------------------------------|
A|---------------------------------|
F|*-------------------------6---6-*|
C|*-1---4---8---6---1---1---6---6-*|x2
G|--1---4---8---6---1---1---4---4--|
C|--1---4---8---6---1---1----------|


3rd chorus
D|---------------------------------|
A|---------------------------------|
F|*-------------------------6---6-*|
C|*-1---4---8---6---1---1---6---6-*|x4
G|--1---4---8---6---1---1---4---4--|
C|--1---4---8---6---1---1----------| 
  • Marco

    really good