Rein Raus tab

Back to the list of all Rammstein tabs

After synthesizer intro      
E|----------|     
B|----------|     
G|----------|     
D|-6-6-6-6--|     
A|-6-6-6-6--|     
D|-6-6-6-6--|     

Main Riff
|-------------------------------------------|
|-------------------------------------------|
|-------------------------------------------|
|-2-----2-----2h3-2---------2h3-2--6-6-6----|
|-2-0-0-2-0-0-2h3-2-x-x-x-x-2h3-2--6-6-6----|
|-2-0-0-2-0-0-2h3-2-x-x-x-x-2h3-2--6-6-6----|
pm  . .   . .]                

Verse Riff

E|-------------------------------------------|
B|-------------------------------------------|
G|-------------------------------------------|
D|-1p0---0--1p0---0------1h3-1p0-------------|
A|-1p0-0-0--1p0-0-0------1h3-1p0-------------|
D|-1p0-0-0--1p0-0-0--0-0-1h3-1p0-------------|
pm     .        .    . .]

Tiefer...
E|-------------------------------------------|
B|-------------------------------------------|
G|-------------------4-----4-----4/5-------|
D|-7-7-7-7--5-5-5-5--4-----4-----4/5-------|
A|-7-7-7-7--5-5-5-5--2-2-2-2-2-2-2/3-------|
D|-7-7-7-7--5-5-5-5--------------------------|
pm                     . .   . .]


Solo:
(Lots of vibrato, and effects pedel is used)

E|------------------------------------------------------------|
B|-9~9~9~9~-9h10p9h10p9h10--5-5-9h10p9h10p9h10--13-13----|
G|------------------------------------------------------------|
D|------------------------------------------------------------|
A|------------------------------------------------------------|
D|------------------------------------------------------------|


E|--------------------------|
B|--------------------------|
G|--------------------------|
D|-5p6---5-----6h8-6p5-5----|
A|-5p6-5-5-----6h8-6p5-5----|
D|-5p6-5-5-5-5-6h8-6p5-5----|
pm     .   . .] 

  • seb

    Wow… Does’nt really like the tabs here…