Rammstein Rammlied tab

Song: Rammlied
Artist: Rammstein
Album: Liebe Ist Für Alle Da
Tuning: C-G-C-F-A-D

Wer wartet mit Besonnenheit
Der wird belohnt? zur rechten zeit
Nun das Warten hat ein ende
Leiht euer ohr einer legende...

Chorus:


  RAMM!!!            STEIN!!!
D|----------------------------------------|
A|----------------------------------------|
F|----------------------------------------|
C|-2----7----5----3-----2----7----9--5--7-|
G|-2----7----5----3-----2----7----9--5--7-|
C|-2----7----5----3-----2----7----9--5--7-|


   RAMM!!!            STEIN!!!
D|----------------------------------------------------|
A|----------------------------------------------------|
F|----------------------------------------------------|
C|-2----7----5----3-----2----7----9--5--7-------------|
G|-2----7----5----3-----2----7----9--5--7--//11b12~~~-|
C|-2----7----5----3-----2----7----9--5--7-------------|


Also a Chorus part:
D|------------------------------------------------------------|
A|------------------------------------------------------------|
F|*-----------------------------------------------------------|
C|*-9-----------9-----------9-10-9-----------9-----------12/8-|
G|--7--7-7-7-7--7--7-7-7-7--7/8/-7--7-7-7-7--7--7-7-7-7--10/6-|
C|------------------------------------------------------------|
pm:    . . . .     . . . .          . . . .     . . . .


D|-----------------------------------------------------------|
A|-----------------------------------------------------------|
F|----------------------------------------------------------*|
C|-9-----------9-----------7-10-9-----------9-----9---------*|
G|-7--7-7-7-7--7--7-7-7-7--5/8/-7--7-7-7-7--7-7-7-7-7-7-7-7--|
C|-----------------------------------------------------------|
pm:   . . . .     . . . .          . . . .    . .   . . . .


Verse riff played the times Till sing:
Longer space between notes only made for better understanding.
D|-------------------------------------------|-------------------------------------------|
A|-------------------------------------------|-------------------------------------------|
F|*------------------------------------------|------------------------------------------*|
C|*-1p0--0--3p0--0--1p0--0--3p0--0--1p0--3p0-|-1p0--0--3p0--0--1p0--0--3p0--0--1p0--3/2-*|
G|-------------------------------------------|-------------------------------------------|
C|-------------------------------------------|-------------------------------------------|



Ending up to bridge:
Guitar1:
D|----------------------------------------------------|
A|----------------------------------------------------|
F|----------------------------------------------------|
C|-9-----------9-----------7-10-9---------------0--10-|
G|-7--7-7-7-7--7--7-7-7-7--5/8/-7--7-7-7-7-7-7--0--10-|
C|----------------------------------------------0--10-|
pm:   . . . .     . . . .          . . . . . .


Guitar2:
D|----------------------------------------------------|
A|----------------------------------------------------|
F|----------------------------------------------------|
C|-9-----------9-----------7-10-9---------------7/5---|
G|-7--7-7-7-7--7--7-7-7-7--5/8/-7--7-7-7-7-7-7--5/3---|
C|----------------------------------------------------|
pm:   . . . .     . . . .          . . . . . .




Bridge:
D|-------------------------------------------------------------------------|
A|-------------------------------------------------------------------------|
F|-------------------------------------------------------------------------|
C|-0-0-0-0--0-0-0-0---0-0-0-0--0-0-0-0--2-2-2-2--2-2-2-2--2-2-2-2--2-2-2-2-|
G|-0-0-0-0--0-0-0-0---0-0-0-0--0-0-0-0--2-2-2-2--2-2-2-2--2-2-2-2--2-2-2-2-|
C|-0-0-0-0--0-0-0-0---0-0-0-0--0-0-0-0--2-2-2-2--2-2-2-2--2-2-2-2--2-2-2-2-|
Pm:. . . .  . . . .   . . . .  . . . .  . . . .  . . . .  . . . .  . . . .


D|------------------------------------------------------------------------------------|
A|------------------------------------------------------------------------------------|
F|------------------------------------------------------------------------------------|
C|-0-0-0-0--0-0-0-0---0-0-0-0--0-0-0-0--2-2-2-2--2-2-2-2--2-2-2-2---2-2-2-2-2-3-1-1-0-|
G|-0-0-0-0--0-0-0-0---0-0-0-0--0-0-0-0--2-2-2-2--2-2-2-2--2-2-2-2---2-2-2-2-2-3-1-1-0-|
C|-0-0-0-0--0-0-0-0---0-0-0-0--0-0-0-0--2-2-2-2--2-2-2-2--2-2-2-2---2-2-2-2-2-3-1-1-0-|
Pm:. . . .  . . . .   . . . .  . . . .  . . . .  . . . .  . . . .   . . . . . . . . .

Interlude:
Guitar 1:
D|-----------|-----------|-----------|-----------|
A|-----------|-----------|-----------|-----------|
F|-7--7--7-7-|-7--7--7-7-|-7--7--7-7-|-7--7--7-7-|
C|-x--x--x-x-|-x--x--x-x-|-x--x--x-x-|-x--x--x-x-|
G|-5--5--5-5-|-5--5--5-5-|-5--5--5-5-|-5--5--5-5-|
C|-----------|-----------|-----------|-----------|


Guitar 2:
D|-----------|-----------|-----------|-----------|
A|-----------|-----------|-----------|-----------|
F|-----------|-----------|-----------|-----------|
C|-----------|-----------|-----------|-----------|
G|-----------|-----------|-----------|-----------|
C|-0--0--0-0-|-5--5--5-5-|-3--3--3-3-|-1--1--1-1-|


Outro:
D|-----------------------------------------------------------|
A|-----------------------------------------------------------|
F|-----------------------------------------------------------|
C|-9---------------9---------------9-------9------9-7-5/10-9-|
G|-7--7-7-7-7-7-7--7--7-7-7-7-7-7--7--7-7--7--7-7-7-5-3/8--7-|
C|-----------------------------------------------------------|
pm:   . . . . . .     . . . . . .     . .     . .
  • Skunk666

    RAMM!!! STEIN!!!
    D|—————————————-|
    A|—————————————-|
    F|—————————————-|
    C|-0—-5—-3—-1—–0—-5—-7–3–5-|
    G|-0—-5—-3—-1—–0—-5—-7–3–5-|
    C|-0—-5—-3—-1—–0—-5—-7–3–5-|

  • M-Rock

    Rammlied je v C, ale Richard ob?as hrává D.

  • GaZ94

    wow … cool danke : )

  • Abgewichst

    Rammlied is in drop d. They use a detuner for the bridge. The tabs here are mostly garbage.