Nebel tab

Back to the list of all Rammstein tabs

Chorus:
  Am  D  E  B  C Am
E|----------------------|
B|-1-------------1------|
G|-2--7--9--4--5-2------|
D|-2--7--9--4--5-2------|
A|-0--5--7--2--3-0------|
E|----------------------|

Really short note after chorus:
E|--------|
B|--10~---|
G|--------|
D|--------|
A|--------|
E|--------|

Solo:

E|---------------------------------------------------------------------------|
B|-10-10-10-10-10-10-10-8-5-5-5-5-5-3-3-3-3-5-5-5-5-5-0-0-0-0-1-1-1-/10~-----|
G|---------------------------------------------------------------------------|
D|---------------------------------------------------------------------------|
A|---------------------------------------------------------------------------|
E|---------------------------------------------------------------------------|
Listen to the CD for the rhytims of the chorus and solo...