Moskau tab

Back to the list of all Rammstein tabs

Intro
D|----------------------------------------
A|----------------------------------------
F|----------------------------------------
C|----------------------------------------
G|----------------------------------------
C|--8--/10-------/8--/10-----/11---

D|----------------------------------------|
A|----------------------------------------|
F|----------------------------------------|
C|----------------------------------------|
G|----------------------------------------|
C|--8--/10-------/8-----------------|

Backing guitars
[ With WAH ]
D|-------------------------------------------|
A|-------------------------------------------|
F|*-----------------------------------------*|
C|*-8---x-x-8---x-x-x-x-8---x-x-x-x-8---x-x-*|x13
G|-------------------------------------------|
C|-------------------------------------------|
pm      . .     . . . .     . . . .     . .

D|-----------------------------------------------|
A|-----------------------------------------------|
F|-----------------------------------------------|
C|--10---x-x-10---x-x-x-x-10---x-x-x-x-10---x-x--|x1
G|-----------------------------------------------|
C|-----------------------------------------------|
pm       . .      . . . .      . . . .      . .

D|-----------------------------------------------|
A|-----------------------------------------------|
F|*-11---x-x-11---x-x-x-x-11---x-x-x-x-11---x-x-*|
C|*---------------------------------------------*|x2
G|-----------------------------------------------|
C|-----------------------------------------------|
pm       . .      . . . .      . . . .      . .


1st Chorus
D|----------------------------------------|
A|----------------------------------------|
F|----------------------------------------|
C|----------------------------------------|
G|----------------------------------------|
C|--8--/10-------/8--/10-----/11---|

Backing guitars
[ With WAH ]
D|-------------------------------------------|
A|-------------------------------------------|
F|*-----------------------------------------*|
C|*-8---x-x-8---x-x-x-x-8---x-x-x-x-8---x-x-*|x8
G|-------------------------------------------|
C|-------------------------------------------|
pm      . .     . . . .     . . . .     . .


2nd Chorus is the same as the intro


Rhythm behind accordion solo
D|----------------------------------------
A|----------------------------------------
F|----------------------------------------
C|----------------------------------------
G|----------------------------------------
C|--8--/10-------/8--/10-----/11---

D|----------------------------------------|
A|----------------------------------------|
F|----------------------------------------|
C|----------------------------------------|
G|----------------------------------------|
C|--8--/10-------/8-----------------|

Backing guitars
[ With WAH ]
D|-------------------------------------------
A|-------------------------------------------
F|-------------------------------------------
C|--8---x-x-8---x-x-x-x-8---x-x-x-x-8---x-x--
G|-------------------------------------------
C|-------------------------------------------
pm      . .     . . . .     . . . .     . .

D|-----------------------------------------------
A|-----------------------------------------------
F|-----------------------------------------------
C|--10---x-x-10---x-x-x-x-10---x-x-x-x-10---x-x--
G|-----------------------------------------------
C|-----------------------------------------------
pm       . .      . . . .      . . . .      . .

D|-------------------------------------------|
A|-------------------------------------------|
F|*-----------------------------------------*|
C|*-4---x-x-4---x-x-x-x-4---x-x-x-x-4---x-x-*|x2
G|-------------------------------------------|
C|-------------------------------------------|
pm      . .     . . . .     . . . .     . .

D|-------------------------------------------
A|-------------------------------------------
F|-------------------------------------------
C|--8---x-x-8---x-x-x-x-8---x-x-x-x-8---x-x--
G|-------------------------------------------
C|-------------------------------------------
pm      . .     . . . .     . . . .     . .

D|-----------------------------------------------
A|-----------------------------------------------
F|-----------------------------------------------
C|--10---x-x-10---x-x-x-x-10---x-x-x-x-10---x-x--
G|-----------------------------------------------
C|-----------------------------------------------
pm       . .      . . . .      . . . .      . .

D|-----------------------------------------------|
A|-----------------------------------------------|
F|*-11---x-x-11---x-x-x-x-11---x-x-x-x-11---x-x-*|
C|*---------------------------------------------*|x2
G|-----------------------------------------------|
C|-----------------------------------------------|
pm       . .      . . . .      . . . .      . .

Play all of this 2 times


Bridge (02.37)
D|------------------|
A|------------------|
F|------------------|
C|------------------|
G|------------------|
C|----/9--\8----|


Paul's lead (02.53)
D|-----------------------------------------|
A|-----------------------------------------|
F|*---------------------------------------*|
C|*-8---8---8---8---8---8---8---8---8---8-*|x16
G|-----------------------------------------|
C|-----------------------------------------|
pm      .       .   .       .   .       .


Last chorus
D|-------------------------------------------
A|-------------------------------------------
F|*------------------------------------------
C|*------------------------------------------
G|-------------------------------------------
C|--8--/10--/11--/13--\8--/10--/11--/16-
--

D|-------------------------------------------|
A|-------------------------------------------|
F|------------------------------------------*|
C|------------------------------------------*|x2
G|-------------------------------------------|
C|--8--/10--/11--/13-/15-\8--------------|

Backing guitars
[ With WAH ]
D|-------------------------------------------|
A|-------------------------------------------|
F|*-----------------------------------------*|
C|*-8---x-x-8---x-x-x-x-8---x-x-x-x-8---x-x-*|x32
G|-------------------------------------------|
C|-------------------------------------------|
pm      . .     . . . .     . . . .     . .


End
D|-----|
A|-----|
F|-----|
C|-----|
G|-----|
C|--8--|