Mein Teil tab

Back to the list of all Rammstein tabs

Intro
D|-----------------------------------|
A|-----------------------------------|
F|*---------------------------------*|
C|*-2-0-2---2-0-2-5-2-0-2---2-0-2---*|x3
G|--2-0-2---2-0-2-5-2-0-2---2-0-2----|
C|--2-0-2---2-0-2-5-2-0-2---2-0-2----|

D|-----------------------------------|
A|-----------------------------------|
F|-----------------------------------|
C|--2---2---2-0-2-5-2-0-2---2-0-2----|
G|--2---2---2-0-2-5-2-0-2---2-0-2----|
C|--2---2---2-0-2-5-2-0-2---2-0-2----|

D|-----------------------------------|
A|-----------------------------------|
F|*---------------------------------*|
C|*-2-0-2---2-0-2-5-2-0-2---2-0-2---*|x2
G|--2-0-2---2-0-2-5-2-0-2---2-0-2----|
C|--2-0-2---2-0-2-5-2-0-2---2-0-2----|

D|---------------------------------------------------------------------|
A|---------------------------------------------------------------------|
F|---------------------------------------------------------------------|
C|--2-0-2---2-0-2---2-0-2---2-0-2---2-0-2---2-0-2---2-0-2---2-0-2---2--|
G|--2-0-2---2-0-2---2-0-2---2-0-2---2-0-2---2-0-2---2-0-2---2-0-2---2--|
C|--2-0-2---2-0-2---2-0-2---2-0-2---2-0-2---2-0-2---2-0-2---2-0-2---2--|


Pre-chorus 
D|-----------------------------------|
A|-----------------------------------|
F|*---------------------------------*|
C|*---------2-0-2-5-2-0-2---2-0-2---*|x3
G|----------2-0-2-5-2-0-2---2-0-2----|
C|----------2-0-2-5-2-0-2---2-0-2----|

D|-----------------------------------|
A|-----------------------------------|
F|-----------------------------------|
C|-----------------------------------|
G|----------2-2-2-2-2-2-2-2-2-2-2-2--|
C|----------2-2-2-2-2-2-2-2-2-2-2-2--|
pm          . . . . . . . . . . . .


Chorus
D|-------------------------------------------------------------------|
A|-------------------------------------------------------------------|
F|*-----------------------------------------------------------------*|
C|*-2-0-2---2-0-2-5-2-0-2-----------0---------------3---------------*|x3
G|--2-0-2---2-0-2-5-2-0-2-----------0---------------3----------------|
C|--2-0-2---2-0-2-5-2-0-2-----------0---------------3----------------|

D|-------------------------------------------------------------------|
A|-------------------------------------------------------------------|
F|-------------------------------------------------------------------|
C|--2-0-2---2-0-2-5-2-0-2-----------3---------------0----------------|
G|--2-0-2---2-0-2-5-2-0-2-----------3---------------0----------------|
C|--2-0-2---2-0-2-5-2-0-2-----------3---------------0----------------|


Fill (01.52)
D|-------------------------------------------------------------------|
A|-------------------------------------------------------------------|
F|-------------------------------------------------------------------|
C|-------------------------------------------------------------------|
G|-------------------------------------------------------------------|
C|--2-2-2-2-2-2-2-2-2-2-2-2-2-2-2-2-3-3-3-3-3-3-3-3-7-7-7-7-7-7-7-7--|

D|-------------------------------------------------------------------|
A|-------------------------------------------------------------------|
F|-------------------------------------------------------------------|
C|-------------------------------------------------------------------|
G|-------------------------------------------------------------------|
C|--2-2-2-2-2-2-2-2-2-2-2-2-2-2-2-2-3-3-3-3-3-3-3-3-0-0-0-0-0-0-0-0--|


Riff behind screaming
D|-----------------------------------|
A|-----------------------------------|
F|*---------------------------------*|
C|*-2-0-2---2-0-2-5-2-0-2---2-0-2---*|x3
G|--2-0-2---2-0-2-5-2-0-2---2-0-2----|
C|--2-0-2---2-0-2-5-2-0-2---2-0-2----|

D|-----------------------------------|
A|-----------------------------------|
F|-----------------------------------|
C|--2---2---2-0-2-5-2-0-2---2-0-2----|
G|--2---2---2-0-2-5-2-0-2---2-0-2----|
C|--2---2---2-0-2-5-2-0-2---2-0-2----|

D|-----------------------------------|
A|-----------------------------------|
F|*---------------------------------*|
C|*-2-0-2---2-0-2-5-2-0-2---2-0-2---*|x4
G|--2-0-2---2-0-2-5-2-0-2---2-0-2----|
C|--2-0-2---2-0-2-5-2-0-2---2-0-2----| 
  • Marco

    nice song