Mein Herz Brennt tab

Back to the list of all Rammstein tabs

Note: The tuning for this song is dropped D, 
down a whole step Low to high:  CGCFAD

Intro/Chorus      
                                                       
D||------------------------------|---------------------------|
A||------------------------------|---------------------------|
F||------------------------------|---------------------------|
C||--0-0-0---0-0-0---0-0-0-0-0-0-|--0---0-0-0---0-0-0--0--2--|
G||--0-0-0---0-0-0---0-0-0-0-0-0-|--0---0-0-0---0-0-0--0--2--|
C||--0-0-0---0-0-0---0-0-0-0-0-0-|--0---0-0-0---0-0-0--0--2--|


 Pre-Chorus                                                                               
-------------------|-------------------|-------------------|-------------------|
-------------------|-------------------|-------------------|-------------------|
--7----------------|-------------------|--3----------------|--5----------------|
--7----------------|--5----------------|--3----------------|--5----------------|
--5----------------|--5----------------|--1----------------|--3----------------|
-------------------|--5----------------|-------------------|-------------------|


                                                                                
-------------------|-------------------|-------------------|-------------------|
-------------------|-------------------|-------------------|-------------------|
--7----------------|-------------------|-------------------|-------------------|
--7----------------|--5----------------|--3----------------|--2----------------|
--5----------------|--5----------------|--3----------------|--2----------------|
-------------------|--5----------------|--3----------------|--2----------------|


Chord before solo     Solo                                                    
-------------------|------------------------------------------|
-------------------|--7-7-7-7-9-9-9-9-10-10-10-10-12-12-12-12-|
-------------------|*----------------------------------------*|
--2----------------|------------------------------------------|
--2----------------|*----------------------------------------*|
--2----------------|------------------------------------------|


                                                Rhythm behind the solo                              
--10-10-10-10-12-12-12-12---------------------|------------------------------|
--------------------------10-10-10-10-9-9-9-9-|------------------------------|
----------------------------------------------|------------------------------|
----------------------------------------------|--2-2-2---2-2-2---2-2-2-2-2-2-|
----------------------------------------------|--2-2-2---2-2-2---2-2-2-2-2-2-|
----------------------------------------------|--2-2-2---2-2-2---2-2-2-2-2-2-|


                             
---------------------------||
---------------------------||
---------------------------||
--2---2-2-2---2-2-2--2--4--||
--2---2-2-2---2-2-2--2--4--||
--2---2-2-2---2-2-2--2--4--||

  • James

    This song is actually played standard tuning (EADGBE) Main riff is played one octave higher. But you can play it drop c if you want:)

  • William

    Mein Herz Brennt is meh favorite song!

    • jim

      yeah mine to!!

  • Jennifer

    Nice!!!!