Mann gegen Mann tab

Back to the list of all Rammstein tabs

First riff
D|---------------------------------|
A|---------------------------------|
F|*-------------------------------*|
C|*-0-----8-----0-----5---0-3---5-*|x2
G|--0-----8-----0-----5---0-3---5--|
C|--0-----8-----0-----5---0-3---5--|


Clean riff
D|---------------------------------|
A|---------------------------------|
F|*-------------------------------*|
C|*-0-----8-----0-----5-----3---5-*|
G|--0-----8-----0-----5-----3---5--|
C|--0-----8-----0-----5-----3---5--|


Chorus
D|-----------------------------------------------------------------
A|-----------------------------------------------------------------
F|*----------------------------------------------------------------
C|*-0-----8-----0-----5---0-3---5---0-----8-----0-----5---0-3---5--
G|--0-----8-----0-----5---0-3---5---0-----8-----0-----5---0-3---5--
C|--0-----8-----0-----5---0-3---5---0-----8-----0-----5---0-3---5--

D|-----------------------------------------------------------------|
A|-----------------------------------------------------------------|
F|----------------------------------------------------------------*|
C|--0-----8-----0--3/5----0-3---5---0-----8-----0-----3-----10----*|
G|--0-----8-----0--3/5----0-3---5---0-----8-----0-----3-----10-----|
C|--0-----8-----0--3/5----0-3---5---0-----8-----0-----3-----10-----|


Bridge at 2.14
D|----------------------------------------------------
A|----------------------------------------------------
F|*---------------------------------------------------
C|*-10/12----12----12/12----12----12/12-12-12\--
G|--10/12----12----12/12----12----12/12-12-12\--
C|--10/12----12----12/12----12----12/12-12-12\--

D|----------------------------------------------------
A|----------------------------------------------------
F|----------------------------------------------------
C|--10/12----12----12/12----12----12/12-12-12\--
G|--10/12----12----12/12----12----12/12-12-12\--
C|--10/12----12----12/12----12----12/12-12-12\--

D|----------------------------------------------------
A|----------------------------------------------------
F|----------------------------------------------------
C|--10\8-----8-----8-/10\8-----8-----8-/10\8--8--8-/--
G|--10\8-----8-----8-/10\8-----8-----8-/10\8--8--8-/--
C|--10\8-----8-----8-/10\8-----8-----8-/10\8--8--8-/--

D|----------------------------------------------------|
A|----------------------------------------------------|
F|*--------------------------------------------------*|
C|*-10\8-----8-----8-/10\8-----8-----8-/10\8--8--8-/-*|x2
G|--10\8-----8-----8-/10\8-----8-----8-/10\8--8--8-/--|
C|--10\8-----8-----8-/10\8-----8-----8-/10\8--8--8-/--|


Interlude at 2.49
[ Clean guitar with chorus ]
D|------1-------1-------0-------0----|
A|----3---3---3---3---3---3---3---3--|
F|*-2-------2-------0-------0-------*|
C|*---------------------------------*|x6
G|-----------------------------------|
C|-----------------------------------|

D|-----------------------------------|
A|-----------------------------------|
F|*---------------------------------*|
C|*---------------------------------*|x4
G|--0-0-0-8-8-8-0-0-0-5-5-5-3-3-5-5--|
C|--0-0-0-8-8-8-0-0-0-5-5-5-3-3-5-5--|
pm  . . . . . . . . . . . . . . . .  
  • kadir

    güzelll