Los tab

Back to the list of all Rammstein tabs

Main riff (Acoustic)
Repeats through the whole song
D|-----------------------------------
A|-----------------------------------
F|*----------------------------------
C|*-----1---3-----------1---3--------
G|------1---3-----5-----1---3-----5--
C|--0-0-1-0-3-0-0-0-0-0-1-0-3-0-0-0--
pm  . .   .   . .   . .   .   . . 

D|-----------------------------------|
A|-----------------------------------|
F|----------------------------------*|
C|------1---3-----------1---3-5-5-5-*|
G|------1---3-----5-----1---3-5-5-5--|
C|--0-0-1-0-3-0-0-0-0-0-1-0-3-5-5-5--|
pm  . .   .   . .   . .   .


'Chorus' (Light distortion)
Varies a little
D|-----------------------------------|
A|------3----------------------------|
F|*---------5-----------------------*|
C|*-----------3b------------3b----3-*|x2
G|--5-----0-------5---3-5-5-3---5----|
C|-----------------------------------|

D|-----------------------------------|
A|------3----------------------------|
F|*---------5-----------------------*|
C|*-----------3b------------3b------*|x2
G|--5-------------5---3-5-5-3---5-3--|
C|-----------------------------------|