Links 2 3 4 tab

Back to the list of all Rammstein tabs

fig 1:				      (x 3)

E------------------|----------------------|
B------------------|----------------------|
G------9-------9---|-----9----12-14---15--|
D------9-------9---|-----9----12-14---15--|
A------7-------7---|-----7----10-12---13--|
E--0-0---0-0-0---0-|-0-0---00-------------|

pm ---   -----   -------   --



fig 1a:

E------------------|------------------------|
B------------------|------------------------|
G------9-------9---|-----9------15---15-----|
D------9-------9---|-----9------15---15-----|
A------7-------7---|-----7------13---13-----|
E--0-0---0-0-0---0-|-0-0---0000-------------|

pm ---   -----   -------   ----



fig 1  x  2

Verse

Chorus:
fig 1  x  4

Verse

Chorus
fig 1  x  4



fig 2:				     (x 2)

E------|-----|-----|-------------------------|
B------|-----|-----|-------------------------|
G------|-----|-----|-------------------------|
D--2---|--5--|--7--|-(7)-------------8---8---|
A--2---|--5--|--7--|-(7)-------------8---8---|
E--0---|--3--|--5--|-(5)-----5-5-5-5-6---6---|

pm                           -------



Acoustic part... 




Chorus
fig 1  X  4




Gtr Solo (play twice):

E-------------------|------------------|
B-7p0-8p0-10p0-12p0-|-10p0-8p0-7p0-8p0-|
G-------------------|------------------|
D-------------------|------------------|
A-------------------|------------------|
E-------------------|------------------|


E--------------------|---------------|
B-10p0-12p0-10p0-8p0-|-7p0-8p0-5-----|
G--------------------|---------------|
D--------------------|---------------|
A--------------------|---------------|
E--------------------|---------------|


E-------------------|------------------|
B-7p0-8p0-10p0-12p0-|-10p0-8p0-7p0-8p0-|
G-------------------|------------------|
D-------------------|------------------|
A-------------------|------------------|
E-------------------|------------------|


E--------------------|---------------|
B-10p0-12p0-10p0-8p0-|-7p0-8p0-12----|
G--------------------|---------------|
D--------------------|---------------|
A--------------------|---------------|
E--------------------|---------------|


During the guitar solo 
fig 1 is played four times


fig 2  X  4