Hilf Mir tab

Back to the list of all Rammstein tabs

Intro

D|---------------------------------------------------|
A|---------------------------------------------------|
F|---------------------------------------------------|
C|---------------------------------------------------|
G|---------------------------------------------------|
C|--16-16-16-16-16-16-16-16-16-16-16-16-16-16-16-16--|

First riff
Doubled with acoustic guitars

1st guitar
D|-------------------------------------|
A|-------------------------------------|
F|*-----------------------------------*|
C|*-4-4-4-4-7-7-------0-0-0-0-0-3-3-3-*|x3
G|--4-4-4-4-4-4-------0-0-0-0-0-3-3-3--|
C|--4-4-4-4-4-4-------0-0-0-0-0-3-3-3--|

D|---------------------------------------|
A|---------------------------------------|
F|---------------------------------------|
C|--4-4-4-4-7-7-----------5*----3-----4--|
G|--4-4-4-4-4-4---------5*--5*--3-----4--|
C|--4-4-4-4-4-4-------5*------5*3-----4--|

2nd guitar
D|-------------------------------------|
A|-------------------------------------|
F|-------------------------------------|
C|--4-4-4-4-7-7-------0-0-0-0-0-3-3-3--|
G|--4-4-4-4-4-4-------0-0-0-0-0-3-3-3--|
C|--4-4-4-4-4-4-------0-0-0-0-0-3-3-3--|

D|-------------------------------------|
A|-------------------------------------|
F|-------------------------------------|
C|--4-4-4-4-7-7-------7-7-7-7-7-6-6-6--|
G|--4-4-4-4-4-4-------5-5-5-5-5-4-4-4--|
C|--4-4-4-4-4-4------------------------|

D|-------------------------------------|
A|-------------------------------------|
F|-------------------------------------|
C|--4-4-4-4-7-7-------0-0-0-0-0-3-3-3--|
G|--4-4-4-4-4-4-------0-0-0-0-0-3-3-3--|
C|--4-4-4-4-4-4-------0-0-0-0-0-3-3-3--|

D|---------------------------------------|
A|---------------------------------------|
F|---------------------------------------|
C|--4-4-4-4-7-7-----------5*----3-----4--|
G|--4-4-4-4-4-4---------5*--5*--3-----4--|
C|--4-4-4-4-4-4-------5*------5*3-----4--|


'Pre-chorus'
Rhythm guitar
D|--------------------------------------------------------------------------|
A|--------------------------------------------------------------------------|
F|*------------------------------------------------------------------------*|
C|*-9-9-9-9-9-9-------11-11-11-11-11-11-11-0-0-0-0-0-0-------2-2-2-2-2-2-2-*|x2
G|--9-9-9-9-9-9-------11-11-11-11-11-11-11-0-0-0-0-0-0-------2-2-2-2-2-2-2--|
C|--9-9-9-9-9-9-------11-11-11-11-11-11-11-0-0-0-0-0-0-------2-2-2-2-2-2-2--|

Solo guitar
Fast tremolo picking on these notes
D|--------------------------------------------------------------------------|
A|--------------------------------------------------------------------------|
F|*------------------------------------------------------------------------*|
C|*-------12----------------11-------------------9-------------------------*|x2
G|--9-----------9---7----------------7-----5-----------5---4-----2-----0----|
C|--------------------------------------------------------------------------|


Second riff
Doubled with acoustic guitars

D|-------------------------------------
A|-------------------------------------
F|-------------------------------------
C|--4-4-4-4-7-7-------0-0-0-0-0-3-3-3--
G|--4-4-4-4-4-4-------0-0-0-0-0-3-3-3--
C|--4-4-4-4-4-4-------0-0-0-0-0-3-3-3--

D|-------------------------------------|
A|-------------------------------------|
F|-------------------------------------|
C|--4-4-4-4-7-7-----------5*----3------|
G|--4-4-4-4-4-4---------5*--5*--3------|
C|--4-4-4-4-4-4-------5*------5*3------|


Third riff
Rhythm guitar
D|-------------------------------------|
A|-------------------------------------|
F|*-----------------------------------*|
C|*-4-4-4-4-7-7-----------------------*|x4
G|--4-4-4-4-4-4------------------------|
C|--4-4-4-4-4-4------------------------|

Solo guitar
D|-------------------------------------|
A|-------------------------------------|
F|*-11~-----------------------5~------*|
C|*--x------------------------x-------*|x4
G|---9~-----------------------3~-------|
C|-------------------------------------|


Bridge @ 2.35
D|-------------------|
A|-------------------|
F|-------------------|
C|-------------------|
G|--2-2-2-2-2-2-2-2--|
C|--2-2-2-2-2-2-2-2--|
pm  . . . . . . . .


Chorus
D|------------------|
A|------------------|
F|*----------------*|
C|*-4--/9---0---11-*|
G|--4--/9---0---11--|
C|--4--/9---0---11--|


Fourth riff
Rhythm guitar
D|-----------------------------------|
A|-----------------------------------|
F|*---------------------------------*|
C|*-4-4-4-4-4-4-4-4-4-4-4-4-4-3-3-3-*|x3
G|--4-4-4-4-4-4-4-4-4-4-4-4-4-3-3-3--|
C|--4-4-4-4-4-4-4-4-4-4-4-4-4-3-3-3--|

D|--------------------------------------|
A|--------------------------------------|
F|--------------------------------------|
C|--4-4-4-4-4-4-4-4-0-0-0-0-0-11-11-11--|
G|--4-4-4-4-4-4-4-4-0-0-0-0-0-11-11-11--|
C|--4-4-4-4-4-4-4-4-0-0-0-0-0-11-11-11--|

Solo guitar (played 3 times)
This part is overdubbed several times:
D|---------------------------------------------------|
A|---------------------------------------------------|
F|*-11-11-11-11-11-11-11-11-11-11-11-11-11-11-11-11-*|
C|*--x--x--x--x--x--x--x--x--x--x--x--x--x--x--x--x-*|x3
G|---9--9--9--9--9--9--9--9--9--9--9--9--9--9--9--9--|
C|---------------------------------------------------|

D|---------------------------------------------------|
A|---------------------------------------------------|
F|--11-11-11-11-11-11-11-11-11-11-11-11-11--9--9--9--|
C|---x--x--x--x--x--x--x--x--x--x--x--x--x--x--x--x--|
G|---9--9--9--9--9--9--9--9--9--9--9--9--9--7--7--7--|
C|---------------------------------------------------|

And:
D|---------------------------------------------------|
A|--14-14-14-14-14-14-14-14-14-14-14-14-14-14-14-14--|
F|*--x--x--x--x--x--x--x--x--x--x--x--x--x--x--x--x-*|
C|*-11-11-11-11-11-11-11-11-11-11-11-11-11-11-11-11-*|x3
G|---------------------------------------------------|
C|---------------------------------------------------|

D|---------------------------------------------------|
A|--14-14-14-14-14-14-14-14-12-12-12-12-12-10-10-10--|
F|---x--x--x--x--x--x--x--x--x--x--x--x--x--x--x--x--|
C|--11-11-11-11-11-11-11-11--9--9--9--9--9--7--7--7--|
G|---------------------------------------------------|
C|---------------------------------------------------|
End
D|-------------------------------------|
A|-------------------------------------|
F|*-----------------------------------*|
C|*-4-4-4-4-7-7-----------------------*|x4
G|--4-4-4-4-4-4------------------------|
C|--4-4-4-4-4-4------------------------|