Feuer und Wasser tab

Back to the list of all Rammstein tabs

Intro
[ Clean guitar with reverb ]
D|-------------------------------------------------------------------
A|-------------------------------------------------------------------
F|-------------------------------------------------------------------
C|--0---0---0---0---0---0---0---0---0---0---0---0---0---0---0---0----
G|----0---0---0---0---0---0---0---0---0---0---0---0---0---0---0---0--
C|--0-------0-------0-------0-------0-------0-------0-------0--------

D|-------------------------------------------------------------------
A|-------------------------------------------------------------------
F|-------------------------------------------------------------------
C|--3---5---7---7---3---5---7---7---3---5---7---7---3---5---7---7----
G|----5---7---8---8---5---7---8---8---5---7---8---8---5---7---8---8--
C|-------------------------------------------------------------------

D|-------------------------------------------------------------------------
A|-------------------------------------------------------------------------
F|-------------------------------------------------------------------------
C|--12----10----8----8----3---5---7---7---3---5---7---7---3---5---7---7----
G|-----13----12---10---10---5---7---8---8---5---7---8---8---5---7---8---8--
C|-------------------------------------------------------------------------

D|-------------------------------------------------------------------------
A|-------------------------------------------------------------------------
F|-------------------------------------------------------------------------
C|--3---5---7---7---12----10----8----8----0---0---0---0---0---0---0---0----
G|----5---7---8---8----13----12---10---10---0---0---0---0---0---0---0---0--
C|----------------------------------------0-------0-------0-------0--------

D|-----------------------------------------------------------------------
A|-----------------------------------------------------------------------
F|-----------------------------------------------------------------------
C|--8---8---8---8---5---5---7---7---0---0---0---0---10---10---10---10----
G|----8---8---8---8---5---5---7---7---0---0---0---0---10---10---10---10--
C|----------------------------------0-------0----------------------------

D|-----------------------------------------------------------------------
A|-----------------------------------------------------------------------
F|-----------------------------------------------------------------------
C|--8---8---8---8---5---5---7---7---3---3---7---7---12---12---10---10----
G|----8---8---8---8---5---5---7---7---0---0---0---0---10---10---10---10--
C|----------------------------------0-------0----------------------------

D|-------------------------------------------------------------------
A|-------------------------------------------------------------------
F|-------------------------------------------------------------------
C|--8---8---8---8---5---5---7---7---0---0---0---0---0---0---0---0----
G|----8---8---8---8---5---5---7---7---0---0---0---0---0---0---0---0--
C|----------------------------------0-------0-------0-------0--------

D|-------------------------------------------------------------------
A|-------------------------------------------------------------------
F|-------------------------------------------------------------------
C|--3---5---7---7---3---5---7---7---3---5---7---7---3---5---7---7----
G|----5---7---8---8---5---7---8---8---5---7---8---8---5---7---8---8--
C|-------------------------------------------------------------------

D|-------------------------------------------------------------------------
A|-------------------------------------------------------------------------
F|-------------------------------------------------------------------------
C|--12----10----8----8----3---5---7---7---3---5---7---7---3---5---7---7----
G|-----13----12---10---10---5---7---8---8---5---7---8---8---5---7---8---8--
C|-------------------------------------------------------------------------

D|-------------------------------------------------------------------------
A|-------------------------------------------------------------------------
F|-------------------------------------------------------------------------
C|--3---5---7---7---12----10----8----8----0---0---0---0---0---0---0---0----
G|----5---7---8---8----13----12---10---10---0---0---0---0---0---0---0---0--
C|----------------------------------------0-------0-------0-------0--------

D|-----------------------------------|
A|-----------------------------------|
F|-----------------------------------|
C|--0---0---0---0---0---0---0---0----|
G|----0---0---0---0---0---0---0---0--|
C|--0-------0-------0-------0--------|


First riff
D|---------------------------------------------------------------------------
A|---------------------------------------------------------------------------
F|---------------------------------------------------------------------------
C|--8-8-8-8-8-8-8-8-5-5-5-5-7-7-7-7-0-0-0-0-0-0-0-0-10-10-10-10-10-10-10-10--
G|--8-8-8-8-8-8-8-8-5-5-5-5-7-7-7-7-0-0-0-0-0-0-0-0-10-10-10-10-10-10-10-10--
C|--8-8-8-8-8-8-8-8-5-5-5-5-7-7-7-7-0-0-0-0-0-0-0-0-10-10-10-10-10-10-10-10--

D|-----------------------------------|
A|-----------------------------------|
F|-----------------------------------|
C|--8-8-8-8-8-8-8-8-5-5-5-5-7-7-7-7--|
G|--8-8-8-8-8-8-8-8-5-5-5-5-7-7-7-7--|
C|--8-8-8-8-8-8-8-8-5-5-5-5-7-7-7-7--|


Chorus
D|---------------------------------------------------------------------------|
A|---------------------------------------------------------------------------|
F|*-------------------------------------------------------------------------*|
C|*-8-8-8-8-8-8-8-8-5-5-5-5-7-7-7-7-0-0-0-0-0-0-0-0-10-10-10-10-10-10-10-10-*|x2
G|--8-8-8-8-8-8-8-8-5-5-5-5-7-7-7-7-0-0-0-0-0-0-0-0-10-10-10-10-10-10-10-10--|
C|--8-8-8-8-8-8-8-8-5-5-5-5-7-7-7-7-0-0-0-0-0-0-0-0-10-10-10-10-10-10-10-10--|

D|-----------------------------------|
A|-----------------------------------|
F|-----------------------------------|
C|--8-8-8-8-8-8-8-8-5-5-5-5-7-7-7-7--|
G|--8-8-8-8-8-8-8-8-5-5-5-5-7-7-7-7--|
C|--8-8-8-8-8-8-8-8-5-5-5-5-7-7-7-7--|


Second riff
D|-----------------------------------|
A|-----------------------------------|
F|-----------------------------------|
C|--8-8-8-8-8-8-8-8-3-3-3-3-3-3-3-3--|
G|--8-8-8-8-8-8-8-8-3-3-3-3-3-3-3-3--|
C|--8-8-8-8-8-8-8-8-3-3-3-3-3-3-3-3--|

D|-----------------------------------|
A|-----------------------------------|
F|*---------------------------------*|
C|*-0-------------------------------*|x4
G|--0---------------0-0--------------|
C|--0---------------0-0--------------|
pm                  . .

Clean guitar
D|-------------------------------------------------------------------
A|-------------------------------------------------------------------
F|-------------------------------------------------------------------
C|--3---5---7---7---3---5---7---7---3---5---7---7---3---5---7---7----
G|----5---7---8---8---5---7---8---8---5---7---8---8---5---7---8---8--
C|-------------------------------------------------------------------

D|-------------------------------------------------|
A|-------------------------------------------------|
F|-------------------------------------------------|
C|--12----10----8----8----3---5---7---7---0---0----|
G|-----13----12---10---10---5---7---8---8---0---0--|
C|----------------------------------------0--------|


Solo (long pauses are shortened to ease readability)
D|----------------
A|----------------
F|-------15---14--
C|----------------
G|--12------------
C|----------------

D|--------------------------------------------12---13---12--
A|-------------------------------------15~------------------
F|---------------14---15---12~----14------------------------
C|--15~~---14p12--------------------------------------------
G|----------------------------------------------------------
C|----------------------------------------------------------

D|----------------------------------------15--13------12--13--17b18--
A|-------------------15---------------------------15-----------------
F|---------------------------14--15--12------------------------------
C|------14---15--12------12------------------------------------------
G|--12---------------------------------------------------------------
C|-------------------------------------------------------------------

D|--15--13--12----------------|
A|--------------15---13b15~~--|
F|----------------------------|
C|----------------------------|
G|----------------------------|
C|----------------------------|


Alternative chorus at 4.30
D|---------------------------------------------------------------------------|
A|---------------------------------------------------------------------------|
F|---------------------------------------------------------------------------|
C|--8-8-8-8-8-8-8-8-3-3-3-3-3-3-3-3-0-0-0-0-0-0-0-0-10-10-10-10-10-10-10-10--|
G|--8-8-8-8-8-8-8-8-3-3-3-3-3-3-3-3-0-0-0-0-0-0-0-0-10-10-10-10-10-10-10-10--|
C|--8-8-8-8-8-8-8-8-3-3-3-3-3-3-3-3-0-0-0-0-0-0-0-0-10-10-10-10-10-10-10-10--|


Ending chord
D|-----|
A|-----|
F|-----|
C|--0--|
G|--0--|
C|--0--|