Ein Lied tab

Back to the list of all Rammstein tabs

Main rhythm
D|-------------------------------------------------------------------|
A|-------------------------------------------------------------------|
F|*-----------------------------------------------------------------*|
C|*-----5-------5-------4-------4-------7-------7-------4-------4---*|
G|----2---2---2---2---5---5---5---5---4---4---4---4---4---4---4---4--|
C|--2-------2-------5-------5-------4-------4-------4-------4--------|

1.50
D|---------------------------------------------------------------------
A|---------------------------------------------------------------------
F|----------------------------------------6-------6-------6-------6----
C|------5-------5-------12-------12------------------------------------
G|----5---5---5---5---9----9---9----9---4---4---4---4---4---4---4---4--
C|--5-------5-------9--------9--------4-------4-------4-------4--------

D|-------------------------------------------------------------------|
A|-------------------------------------------------------------------|
F|-------------------------------------------------------------------|
C|------5-------5-------9-------9-------4-------4-------4-------4----|
G|----5---5---5---5---9---9---9---9---4---4---4---4---4---4---4---4--|
C|--5-------5-------9-------9-------4-------4-------4-------4--------|  
  • Pinfer

    I adore this tab. It is fairly accurate but requires a lot of stretching of the fingers! Nice job!