Du hast tab

Back to the list of all Rammstein tabs

Standard Tuning
|-e-|
|-B-|
|-G-|
|-D-|
|-A-|
|-E-|

Intro
|----------------------------------------------|.|------------------------|
|----------------------------------------------|.|------------------------|
|----------------------------------------------|.|------------------------|
|-7----------------7-5-----------------------|.|-5/7--------------------|
|-7-2--2--2-2-2--2-7-5-2--2--2--2-2-2--2-2-2-|.|-5/7-7--7--7-7-7--7-7-7-|
|-5-0--0--0-0-0--0-5-3-0--0--0--0-0-0--0-0-0-|.|-3/5-5--5--5-5-5--5-5-5-|
      pm............]    pm...................]        pm................]

Verse
||------------------------------------------------||
||*----------------------------------------------*||
||------------------------------------------------||
||--7----------------7-5------------------------||
||*-7-2--2--2-2-2--2-7-5-2--2--2--2-2-2--2-2-2-*||
||--5-0--0--0-0-0--0-5-3-0--0--0--0-0-0--0-0-0--||
        pm............]    pm...................]

||--------------------------||
||*------------------------*||
||--------------------------||
||--5/7---------------------||
||*-5/7-7--7--7-7-7--7-7-7-*||
||--3/5-5--5--5-5-5--5-5-5--||
        pm................]

|----------------------------------------------------|
|----------------------------------------------------|
|----------------------------------------------------|
|-7/10----------------------10-9---------------------|
|-7/10-10--10--10-10-10--10-10-9--9--9--9-9-9--9-9-9-|
|-5/8---8---8---8--8--8---8--8-7--7--7--7-7-7--7-7-7-|
       pm..................]     pm.................]