Bestrafe Mich tab

Back to the list of all Rammstein tabs

Drop D tuning
|-e-|
|-B-|
|-G-|
|-D-|
|-A-|
|-D-|

Riff 1
|--------------------------------------------------|.|---------------|
|--------------------------------------------------|.|---------------|
|--------------------------------------------------|.|---------------|
|--------------------------------------------------|.|-------------2-|
|-2-2-2--2-2--2-2-2--2-2--2-2-2--2-2--2/5-2--2--2--|.|-5-4-3-5-4-3-2-|
|-2-2-2--2-2--2-2-2--2-2--2-2-2--2-2--2/5-2--2--2--|.|-5-4-3-5-4-3-2-|
  pm................................]     pm.....]     pm.........]

Verse
|----------------------------------|
|----------------------------------|
|----------------------------------|
|----------------------------------|
|-2-2--2-2-2--2-2--2-2--2-2-2--1-0-|
|-2-2--2-2-2--2-2--2-2--2-2-2--1-0-|
  pm..............................]

Chorus
|------------------------------------------|
|------------------------------------------|
|----------4----------5---------9----------|
|-2--------4----------5---------9----------|
|-2--------2----------3---------7----------|
|-2----------------------------------------|