Amour tab

Back to the list of all Rammstein tabs

1st verse
Richard 
[ Clean guitar with flanger ]
D|-----------------------------------|
A|-----------------------------------|
F|*---------------------------------*|
C|*-----3-----3---------5-------8-7-*|x3
G|--5-------5-----5-3------/5-5------|
C|-----------------------------------|

D|-----------------------------------|
A|-----------------------------------|
F|-----------------------------------|
C|------3-----3---------5------------|
G|--5-------5-----5-3----------------|
C|-----------------------------------|

D|-----------------------------------|
A|-----------------------------------|
F|*---------------------------------*|
C|*-----3-----3---------5-------8-7-*|x3
G|--5-------5-----5-3------/5-5------|
C|-----------------------------------|

D|--------------------------------------|
A|--------------------------------------|
F|--------------------------------------|
C|------7-----7----------8------8-------|
G|--8-------8-----8-10-------10---10-10-|
C|--------------------------------------|

D|-----|
A|-----|
F|-----|
C|-----|
G|--8--|
C|-----|


Paul's part (after richard has played the first 4 bars)
[ Clean guitar ]
D|--------------------------------------|
A|--------------------------------------|
F|*------------------------------------*|
C|*-----3-----3---------5---8-----8----*|x3
G|--5-------5-----5/7-----7-10-10---10--|
C|--------------------------------------|

D|---------------------------------------|
A|---------------------------------------|
F|---------------------------------------|
C|------7-----7----------8------8--------|
G|--8-------8-----8-10-------10---10-10--|
C|---------------------------------------|

D|-----|
A|-----|
F|-----|
C|--3--|
G|--5--|
C|-----|


2nd verse

Richard plays exactly the same as he does in the 1st verse.

Paul
D|--------------------------------------|
A|--------------------------------------|
F|*------------------------------------*|
C|*-----3-----3---------5---8-----8----*|x3
G|--5-------5-----5/7-----7-10-10---10--|
C|--------------------------------------|

D|---------------------------------------|
A|---------------------------------------|
F|---------------------------------------|
C|------7-----7-----8--------------------|
G|--8-------8-----8-10-------------------|
C|---------------------------------------|


D|--------------------------------------|
A|--------------------------------------|
F|*------------------------------------*|
C|*-----3-----3---------5---8-----8----*|x3
G|--5-------5-----5/7-----7-10-10---10--|
C|--------------------------------------|


D|---------------------------------------|
A|---------------------------------------|
F|---------------------------------------|
C|------7-----7----------8------8--------|
G|--8-------8-----8-10-------10---10-10--|
C|---------------------------------------|

D|-----|
A|-----|
F|-----|
C|--3--|
G|--5--|
C|-----|


3rd verse

Richard  plays the same as the 1st and 2nd verse, 
but he plays the first part 4 times instead of 3.

Paul plays the same as in the 2nd verse


First Chorus
D|-------------------------------------------------------------------
A|-------------------------------------------------------------------
F|--7-7-7-7-7-7-7-7-7-7-7-7-7-7-7-7----------------------------------
C|--7-7-7-7-7-7-7-7-7-7-7-7-7-7-7-7-8-8-8-8-8-8-8-8-8-8-8-8-8-8-8-8--
G|--5-5-5-5-5-5-5-5-5-5-5-5-5-5-5-5-8-8-8-8-8-8-8-8-8-8-8-8-8-8-8-8--
C|----------------------------------8-8-8-8-8-8-8-8-8-8-8-8-8-8-8-8--

D|-------------------------------------------------------------------
A|-------------------------------------------------------------------
F|--7-7-7-7-7-7-7-7-7-7-7-7-7-7-7-7----------------------------------
C|--7-7-7-7-7-7-7-7-7-7-7-7-7-7-7-7-8-8-8-8-8-8-8-8-8-8-8-8-8-8-8-8--
G|--5-5-5-5-5-5-5-5-5-5-5-5-5-5-5-5-8-8-8-8-8-8-8-8-8-8-8-8-8-8-8-8--
C|----------------------------------8-8-8-8-8-8-8-8-8-8-8-8-8-8-8-8--

D|-------------------------------------------------------------------
A|-------------------------------------------------------------------
F|-------------------------------------------------------------------
C|--7-7-7-7-7-7-7-7-7-7-7-7-7-7-7-7-5-5-5-5-5-5-5-5-5-5-5-5-5-5-5-5--
G|--7-7-7-7-7-7-7-7-7-7-7-7-7-7-7-7-5-5-5-5-5-5-5-5-5-5-5-5-5-5-5-5--
C|--7-7-7-7-7-7-7-7-7-7-7-7-7-7-7-7-5-5-5-5-5-5-5-5-5-5-5-5-5-5-5-5--

D|-------------------------------------------------------------------
A|-------------------------------------------------------------------
F|-------------------------------------------------------------------
C|--7-7-7-7-7-7-7-7-7-7-7-7-7-7-7-7-8-8-8-8-8-8-8-8-8-8-8-8-8-8-8-8--
G|--7-7-7-7-7-7-7-7-7-7-7-7-7-7-7-7-8-8-8-8-8-8-8-8-8-8-8-8-8-8-8-8--
C|--7-7-7-7-7-7-7-7-7-7-7-7-7-7-7-7-8-8-8-8-8-8-8-8-8-8-8-8-8-8-8-8--

D|-------------------------------------------------------------------
A|-------------------------------------------------------------------
F|--7-7-7-7-7-7-7-7-7-7-7-7-7-7-7-7----------------------------------
C|--7-7-7-7-7-7-7-7-7-7-7-7-7-7-7-7-8-8-8-8-8-8-8-8-8-8-8-8-8-8-8-8--
G|--5-5-5-5-5-5-5-5-5-5-5-5-5-5-5-5-8-8-8-8-8-8-8-8-8-8-8-8-8-8-8-8--
C|----------------------------------8-8-8-8-8-8-8-8-8-8-8-8-8-8-8-8--

D|-------------------------------------------------------------------
A|-------------------------------------------------------------------
F|-------------------------------------------------------------------
C|--7-7-7-7-7-7-7-7-7-7-7-7-7-7-7-7-5-5-5-5-5-5-5-5-5-5-5-5-5-5-5-5--
G|--7-7-7-7-7-7-7-7-7-7-7-7-7-7-7-7-5-5-5-5-5-5-5-5-5-5-5-5-5-5-5-5--
C|--7-7-7-7-7-7-7-7-7-7-7-7-7-7-7-7-5-5-5-5-5-5-5-5-5-5-5-5-5-5-5-5--

D|-------------------------------------------------------------------
A|-------------------------------------------------------------------
F|-------------------------------------------------------------------
C|--3-3-3-3-3-3-3-3-3-3-3-3-3-3-3-3-5-5-5-5-5-5-5-5-5-5-5-5-5-5-5-5--
G|--3-3-3-3-3-3-3-3-3-3-3-3-3-3-3-3-5-5-5-5-5-5-5-5-5-5-5-5-5-5-5-5--
C|--3-3-3-3-3-3-3-3-3-3-3-3-3-3-3-3-5-5-5-5-5-5-5-5-5-5-5-5-5-5-5-5--

D|-------------------------------------------------------------------|
A|-------------------------------------------------------------------|
F|-------------------------------------------------------------------|
C|--7-7-7-7-7-7-7-7-7-7-7-7-7-7-7-7-8-8-8-8-8-8-8-8-8-8-8-8-8-8-8-8--|
G|--7-7-7-7-7-7-7-7-7-7-7-7-7-7-7-7-8-8-8-8-8-8-8-8-8-8-8-8-8-8-8-8--|
C|--7-7-7-7-7-7-7-7-7-7-7-7-7-7-7-7-8-8-8-8-8-8-8-8-8-8-8-8-8-8-8-8--|


All other choruses
D|-------------------------------------------------------------------
A|-------------------------------------------------------------------
F|*-7-7-7-7-7-7-7-7-7-7-7-7-7-7-7-7----------------------------------
C|*-7-7-7-7-7-7-7-7-7-7-7-7-7-7-7-7-8-8-8-8-8-8-8-8-8-8-8-8-8-8-8-8--
G|--5-5-5-5-5-5-5-5-5-5-5-5-5-5-5-5-8-8-8-8-8-8-8-8-8-8-8-8-8-8-8-8--
C|----------------------------------8-8-8-8-8-8-8-8-8-8-8-8-8-8-8-8--

D|-------------------------------------------------------------------
A|-------------------------------------------------------------------
F|-------------------------------------------------------------------
C|--7-7-7-7-7-7-7-7-7-7-7-7-7-7-7-7-5-5-5-5-5-5-5-5-5-5-5-5-5-5-5-5--
G|--7-7-7-7-7-7-7-7-7-7-7-7-7-7-7-7-5-5-5-5-5-5-5-5-5-5-5-5-5-5-5-5--
C|--7-7-7-7-7-7-7-7-7-7-7-7-7-7-7-7-5-5-5-5-5-5-5-5-5-5-5-5-5-5-5-5--

D|-------------------------------------------------------------------
A|-------------------------------------------------------------------
F|-------------------------------------------------------------------
C|--3-3-3-3-3-3-3-3-3-3-3-3-3-3-3-3-5-5-5-5-5-5-5-5-5-5-5-5-5-5-5-5--
G|--3-3-3-3-3-3-3-3-3-3-3-3-3-3-3-3-5-5-5-5-5-5-5-5-5-5-5-5-5-5-5-5--
C|--3-3-3-3-3-3-3-3-3-3-3-3-3-3-3-3-5-5-5-5-5-5-5-5-5-5-5-5-5-5-5-5--

D|-------------------------------------------------------------------|
A|-------------------------------------------------------------------|
F|------------------------------------------------------------------*|
C|--7-7-7-7-7-7-7-7-7-7-7-7-7-7-7-7-8-8-8-8-8-8-8-8-8-8-8-8-8-8-8-8-*|
G|--7-7-7-7-7-7-7-7-7-7-7-7-7-7-7-7-8-8-8-8-8-8-8-8-8-8-8-8-8-8-8-8--|
C|--7-7-7-7-7-7-7-7-7-7-7-7-7-7-7-7-8-8-8-8-8-8-8-8-8-8-8-8-8-8-8-8--|


Solo 
[ With bottleneck/slide ]
D|----------------
A|----------------
F|--14~(fade in)--
C|----------------
G|----------------
C|----------------

D|-----------------------------------------------------------------
A|--13/15~---------10/11~~~----13/15~---------------------
F|-----------10/7~~---------------------------10/7~~---9/10~~\9~~--
C|-----------------------------------------------------------------
G|-----------------------------------------------------------------
C|-----------------------------------------------------------------

D|------------------------------------------------16~/17~~----22~-22~~(fade out)--
A|--13/15~---------15/17~~--15~~--17~/18~~-------------------------------------
F|----------10/7~~-------------------------------------------------------------------
C|-----------------------------------------------------------------------------------
G|-----------------------------------------------------------------------------------
C|-----------------------------------------------------------------------------------


End

Two guitars play these parts:

D|-----------------------------------|
A|-----------------------------------|
F|*-7-7-7-7-7-7-8-8-7-7-7-7-7-8-8-8-*|
C|*-7-7-7-7-7-7-8-8-7-7-7-7-7-8-8-8-*|x4
G|--5-5-5-5-5-5-6-6-5-5-5-5-5-6-6-6--|
C|-----------------------------------|
pm  .           . .           . . .


D|-----------------------------------|
A|-----------------------------------|
F|*---------------------------------*|
C|*-0-0-0-0-0-0-1-1-0-0-0-0-0-1-1-1-*|x4
G|--0-0-0-0-0-0-1-1-0-0-0-0-0-1-1-1--|
C|--0-0-0-0-0-0-1-1-0-0-0-0-0-1-1-1--|
pm  .           . .           . . .