Amerika tab

Back to the list of all Rammstein tabs

Intro / Chorus (We´re all living in Amerika..) 
D|------------------------------------------------------------------- 
A|------------------------------------------------------------------- 
F|------------------------------------------------------------------- 
C|--0-0-0-0-0-0-0-0-0-0-0-0-0-0-0-0-0-2-2-2-2-2-2-2-2-2-2-2-2-2-2-2-- 
G|--0-0-0-0-0-0-0-0-0-0-0-0-0-0-0-0-0-2-2-2-2-2-2-2-2-2-2-2-2-2-2-2-- 
C|--0-0-0-0-0-0-0-0-0-0-0-0-0-0-0-0-0-2-2-2-2-2-2-2-2-2-2-2-2-2-2-2-- 


D|-------------------------------------------------------------------| 
A|-------------------------------------------------------------------| 
F|-------------------------------------------------------------------| 
C|--0-0-0-0-0-0-0-3-3-3-3-3-3-3-3-3-3-2-2-2-2-2-2-5-5-5-5-5-5-5-5-5--| 
G|--0-0-0-0-0-0-0-3-3-3-3-3-3-3-3-3-3-2-2-2-2-2-2-5-5-5-5-5-5-5-5-5--| 
C|--0-0-0-0-0-0-0-3-3-3-3-3-3-3-3-3-3-2-2-2-2-2-2-5-5-5-5-5-5-5-5-5--| 


Verse  
1st guitar [ Light distortion ] 
D|-------------------------------------------------------------------| 
A|-------------------------------------------------------------------| 
F|*-----------------------------------------------------------------*| 
C|*-----------------------------------------------------------------*|x2 
G|--0-2-2-2-2---2-2-2-2-2---2-2-2-0-0-2-2-2-2---2-2-2-2-2---5-5-0-0--| 
C|--0-2-2-2-2---2-2-2-2-2---2-2-2-0-0-2-2-2-2---2-2-2-2-2---5-5-0-0--| 
pm  . . . . .   . . . . .   . . . . . . . . .   . . . . .   . . . .  


2nd guitar [ Clean guitar with light chorus ] 
D|-------------------------------------------------------------------| 
A|------0------------------------------------------------------------| 
F|*---0-------------------------------------------------------------*| 
C|*-2---------------------------------------------------------------*|x2 
G|-------------------------------------------------------------------| 
C|-------------------------------------------------------------------| 


1st guitar 
D|-------------------------------------------------------------------| 
A|-------------------------------------------------------------------| 
F|-------------------------------------------------------------------| 
C|-------------------------------------------------------------------| 
G|--0-2-2-2-2---2-2-2-2-2---2-2-2-2-4-4-4-4-4---4-4-4-4-4---4-4-4-4--| 
C|--0-2-2-2-2---2-2-2-2-2---2-2-2-2-4-4-4-4-4---4-4-4-4-4---4-4-4-4--| 
pm  . . . . .   . . . . .   . . . . . . . . .   . . . . .   . . . .  


2nd guitar 
D|-------------------------------------------------------------------| 
A|--------------------------------------2----------------------------| 
F|------------------------------------2------------------------------| 
C|----------------------------------4--------------------------------| 
G|-------------------------------------------------------------------| 
C|-------------------------------------------------------------------| 


1st guitar 
D|-------------------------------------------------------------------| 
A|-------------------------------------------------------------------| 
F|-------------------------------------------------------------------| 
C|-------------------------------------------------------------------| 
G|--0-2-2-2-2---2-5-5-5-5---5-5-5-5-4-4-4-4-4---4-4-4-4-4---4-4-4-4--| 
C|--0-2-2-2-2---2-5-5-5-5---5-5-5-5-4-4-4-4-4---4-4-4-4-4---4-4-4-4--| 
pm  . . . . .   . . . . .   . . . . . . . . .   . . . . .   . . . .  


2nd guitar 
D|-------------------------------------------------------------------| 
A|--------------------------------------2----------------------------| 
F|------------------------------------2------------------------------| 
C|----------------------------------4--------------------------------| 
G|-------------------------------------------------------------------| 
C|-------------------------------------------------------------------| 


Bridge 1 (This is not a love song...) 
D|-------------------------------------------------------------------| 
A|-------------------------------------------------------------------| 
F|*-----------------------------------------------------------------*| 
C|*-----------------------------------------------------------------*|x2 
G|-------------------------------------------------------------------| 
C|--0-2-2-2-2~--0-2-2-2-2~--0-2-2-2-0-2-2-2-2~--0-2-2-2-2~--5-5-0-0--| 


Solo 1(Two-handed tapping, neck pickup) 
There are probably a lot of ways to do this solo, but this is an easy  
and accurate way to play it. 


Tap with right hand (or left if you're playin a lefthander 😉 
    T     T     T     T     T     T     T     T 
D|--1h5h8-1h5h8-1h5h8-1h5h8-1h5h8-1h5h8-1h5h8-1h5h8-- 
A|--------------------------------------------------- 
F|--------------------------------------------------- 
C|--------------------------------------------------- 
G|--------------------------------------------------- 
C|--------------------------------------------------- 


D|-p0h5h8p0h5h8p0h5h8p0h5h8p0h5h8p0h5h8p0h5h8p0h5h8-- 
A|--------------------------------------------------- 
F|--------------------------------------------------- 
C|--------------------------------------------------- 
G|--------------------------------------------------- 
C|--------------------------------------------------- 


    T     T     T     T     T     T     T     T 
D|--3h5h7-3h5h7-3h5h7-3h5h7-3h5h7-3h5h7-3h5h7-3h5h7-- 
A|--------------------------------------------------- 
F|--------------------------------------------------- 
C|--------------------------------------------------- 
G|--------------------------------------------------- 
C|--------------------------------------------------- 

    T     T     T     T     T     T     T     T 
D|--3h5h7-3h5h7-3h5h7-3h5h7-3h5h7-3h5h7-3h5h7-3h5h7-- 
A|--------------------------------------------------- 
F|--------------------------------------------------- 
C|--------------------------------------------------- 
G|--------------------------------------------------- 
C|--------------------------------------------------- 

    T     T     T     T     T     T     T     T 
D|--1h5h8-1h5h8-1h5h8-1h5h8-1h5h8-1h5h8-1h5h8-1h5h8-- 
A|--------------------------------------------------- 
F|--------------------------------------------------- 
C|--------------------------------------------------- 
G|--------------------------------------------------- 
C|--------------------------------------------------- 


Now, here the solo gets out of rhythm, makes it even better 🙂 
    T        T    T        T        T    T        T 
D|--12p8p5h8-12p8-12p8p5h8-12p8p5h8-12p8-12p8p5h8-12p8- 
A|----------------------------------------------------- 
F|----------------------------------------------------- 
C|----------------------------------------------------- 
G|----------------------------------------------------- 
C|----------------------------------------------------- 

    T      T      T      T      T      T      T      T 
D|--12p7p3-12p7p3-12p7p3-12p7p3-12p7p3-12p7p3-12p7p3-12p7p3--| 
A|-----------------------------------------------------------| 
F|-----------------------------------------------------------| 
C|-----------------------------------------------------------| 
G|-----------------------------------------------------------| 
C|-----------------------------------------------------------| 


Solo 2 (Mixed very low, with WAH-WAH, can be heard better in the english version) 
D|--------------------------------------------------------------------------------- 
A|--------------------------------------------------------------------------------- 
F|--9-10-10-10-10---10/14-14-14-14---14-14-14-14-14-9-9-9-9---9-9-9-9-9---9-9-9-9-- 
C|--x--x--x--x--x----x--x--x--x--x----x--x--x--x--x-x-x-x-x---x-x-x-x-x---x-x-x-x-- 
G|--7--8--8--8--8----8/12-12-12-12---12-12-12-12-12-7-7-7-7---7-7-7-7-7---7-7-7-7-- 
C|--------------------------------------------------------------------------------- 


D|---------------------------------------------------------------------------------| 
A|---------------------------------------------------------------------------------| 
F|--9-10-10-10-10---10/14-14-14-14---14-17-17-17-17-9-9-9-9---9-9-9-9-9---9-9-9-9--| 
C|--x--x--x--x--x----x--x--x--x--x----x--x--x--x--x-x-x-x-x---x-x-x-x-x---x-x-x-x--| 
G|--7--8--8--8--8----8/12-12-12-12---12-15-15-15-15-7-7-7-7---7-7-7-7-7---7-7-7-7--| 
C|---------------------------------------------------------------------------------| 


Rhythm behind the guitar solos 
D|-------------------------------------------------------------------| 
A|-------------------------------------------------------------------| 
F|-------------------------------------------------------------------| 
C|--2-3-3-3-3---3/7-7-7-7---7-7-7-7-7-2-2-2-2---2-2-2-2-2---2-2-2-2--| 
G|--2-3-3-3-3---3/7-7-7-7---7-7-7-7-7-2-2-2-2---2-2-2-2-2---2-2-2-2--| 
C|--2-3-3-3-3---3/7-7-7-7---7-7-7-7-7-2-2-2-2---2-2-2-2-2---2-2-2-2--| 




Bridge 2 (Right after the guitar solo) 
D|-----------------------------------| 
A|-----------------------------------| 
F|-----------------------------------| 
C|-----------------------------------| 
G|-----------------------------------| 
C|--0-2-2-2-2~--0-2-2-2-2~--5-5-0-0--| 


Bridge 3 (after the last chorus) 
D|-------------------------------------------------------------------| 
A|-------------------------------------------------------------------| 
F|*-----------------------------------------------------------------*| 
C|*-----------------------------------------------------------------*|x2 
G|-------------------------------------------------------------------| 
C|--0-2-2-2-2~--0-2-2-2-2~--0-2-2-2-0-2-2-2-2~--0-2-2-2-2~--5(mute)--|