Adios tab

Back to the list of all Rammstein tabs

Dropped D tuning

Clean Intro and first chorus
                                                             
E||--------------------------|---------------------------------|
B||--------------------------|---------------------------------|
G||--------------------------|--10--10--10--10/-12--12--12--7--|
D||--8--8--8--8--8--8--8--8--|--10--10--10--10/-12--12--12--7--|
A||--8--8--8--8--8--8--8--8--|--8---8---8---8/--10--10--10--5--|
D||--8--8--8--8--8--8--8--8--|---------------------------------|


                             Main Riff                                
--------------------------||--------------------------------|
--------------------------||--------------------------------|
--7--7--7--7--7/-5--5/-4--||*-----5--7----------------------|
--7--7--7--7--7/-5--5/-4--||*--3--5--7----------------------|
--5--5--5--5--5/-3--3/-2--||---3--3--5--------------3h5-----|
--------------------------||---3--------0-0-0-0-0-0-----0-0-|


                                   Distorted Chorus (Nichts...)                        
-----------------------------------||--------------------------|
-----------------------------------||--------------------------|
----------------------------------*||--------------------------|
----------------------------------*||--8--8--8--8--8--8--8--8--|
----------3h5----------------------||--8--8--8--8--8--8--8--8--|
--0-0-0-0-----0-0-0-0-0-0-0-0-0-0--||--8--8--8--8--8--8--8--8--|


                                                              
---------------------------------|--------------------------||
---------------------------------|--------------------------||
--10--10--10--10/-12--12--12--7--|--7--7--7--7--7/-5--5/-4--||
--10--10--10--10/-12--12--12--7--|--7--7--7--7--7/-5--5/-4--||
--8---8---8---8/--10--10--10--5--|--5--5--5--5--5/-3--3/-2--||
---------------------------------|--------------------------||
  • AndorThe

    Solo

    e—————————|———–|——————|
    b–8-10-10-8-10-10-8-10-10–|—8-6—–|—10-8-6———|
    g—————————|——-8—|———-8——-|
    D—————————|———–|——————|
    A—————————|———–|——————|
    D—————————|———–|——————|